  0
SECTION
  2
HEADER
  9
$ACADVER
  1
AC1009
  9
$INSBASE
 10
27.17493461070159
 20
-20.82289127038484
 30
0.0
  9
$EXTMIN
 10
32.28733665170872
 20
-14.54126015240979
 30
0.0
  9
$EXTMAX
 10
53.31444692468326
 20
15.39612770352816
 30
0.0
  9
$LIMMIN
 10
0.0280745319796552
 20
1.068270737659986
  9
$LIMMAX
 10
420.0
 20
297.0
  9
$ORTHOMODE
 70
     1
  9
$REGENMODE
 70
     0
  9
$FILLMODE
 70
     1
  9
$QTEXTMODE
 70
     0
  9
$MIRRTEXT
 70
     0
  9
$DRAGMODE
 70
     2
  9
$LTSCALE
 40
1.0
  9
$OSMODE
 70
    32
  9
$ATTMODE
 70
     2
  9
$TEXTSIZE
 40
5.0
  9
$TRACEWID
 40
0.1
  9
$TEXTSTYLE
  7
STANDARD
  9
$CLAYER
  8
DEFPOINTS
  9
$CELTYPE
  6
BYLAYER
  9
$CECOLOR
 62
   256
  9
$DIMSCALE
 40
1.0
  9
$DIMASZ
 40
2.5
  9
$DIMEXO
 40
1.0
  9
$DIMDLI
 40
8.0
  9
$DIMRND
 40
0.0
  9
$DIMDLE
 40
0.0
  9
$DIMEXE
 40
2.0
  9
$DIMTP
 40
0.1
  9
$DIMTM
 40
0.1
  9
$DIMTXT
 40
3.5
  9
$DIMCEN
 40
2.0
  9
$DIMTSZ
 40
0.0
  9
$DIMTOL
 70
     0
  9
$DIMLIM
 70
     0
  9
$DIMTIH
 70
     0
  9
$DIMTOH
 70
     0
  9
$DIMSE1
 70
     0
  9
$DIMSE2
 70
     0
  9
$DIMTAD
 70
     1
  9
$DIMZIN
 70
     8
  9
$DIMBLK
  1

  9
$DIMASO
 70
     1
  9
$DIMSHO
 70
     1
  9
$DIMPOST
  1

  9
$DIMAPOST
  1

  9
$DIMALT
 70
     0
  9
$DIMALTD
 70
     2
  9
$DIMALTF
 40
25.39999999999999
  9
$DIMLFAC
 40
1.0
  9
$DIMTOFL
 70
     1
  9
$DIMTVP
 40
0.0
  9
$DIMTIX
 70
     0
  9
$DIMSOXD
 70
     0
  9
$DIMSAH
 70
     0
  9
$DIMBLK1
  1

  9
$DIMBLK2
  1

  9
$DIMSTYLE
  2
GEN-ISO
  9
$DIMCLRD
 70
   256
  9
$DIMCLRE
 70
   256
  9
$DIMCLRT
 70
     2
  9
$DIMTFAC
 40
0.71
  9
$DIMGAP
 40
1.5
  9
$LUNITS
 70
     2
  9
$LUPREC
 70
     2
  9
$SKETCHINC
 40
1.985098471718417
  9
$FILLETRAD
 40
2.5
  9
$AUNITS
 70
     0
  9
$AUPREC
 70
     3
  9
$MENU
  1

  9
$ELEVATION
 40
0.0
  9
$PELEVATION
 40
0.0
  9
$THICKNESS
 40
0.0
  9
$LIMCHECK
 70
     0
  9
$BLIPMODE
 70
     0
  9
$CHAMFERA
 40
2.5
  9
$CHAMFERB
 40
2.5
  9
$SKPOLY
 70
     1
  9
$TDCREATE
 40
2450031.595625000
  9
$TDUPDATE
 40
2450247.646417708
  9
$TDINDWG
 40
0.0174878472
  9
$TDUSRTIMER
 40
0.0174878472
  9
$USRTIMER
 70
     1
  9
$ANGBASE
 50
0.0
  9
$ANGDIR
 70
     0
  9
$PDMODE
 70
     3
  9
$PDSIZE
 40
0.8902413417130883
  9
$PLINEWID
 40
0.0
  9
$COORDS
 70
     2
  9
$SPLFRAME
 70
     0
  9
$SPLINETYPE
 70
     6
  9
$SPLINESEGS
 70
     8
  9
$ATTDIA
 70
     1
  9
$ATTREQ
 70
     1
  9
$HANDLING
 70
     1
  9
$HANDSEED
  5
5B
  9
$SURFTAB1
 70
     6
  9
$SURFTAB2
 70
     6
  9
$SURFTYPE
 70
     6
  9
$SURFU
 70
     6
  9
$SURFV
 70
     6
  9
$UCSNAME
  2

  9
$UCSORG
 10
0.0
 20
0.0
 30
0.0
  9
$UCSXDIR
 10
1.0
 20
0.0
 30
0.0
  9
$UCSYDIR
 10
0.0
 20
1.0
 30
0.0
  9
$PUCSNAME
  2

  9
$PUCSORG
 10
0.0
 20
0.0
 30
0.0
  9
$PUCSXDIR
 10
1.0
 20
0.0
 30
0.0
  9
$PUCSYDIR
 10
0.0
 20
1.0
 30
0.0
  9
$USERI1
 70
     0
  9
$USERI2
 70
     3
  9
$USERI3
 70
    15
  9
$USERI4
 70
     0
  9
$USERI5
 70
     0
  9
$USERR1
 40
1.0
  9
$USERR2
 40
1.0
  9
$USERR3
 40
0.0
  9
$USERR4
 40
1.0
  9
$USERR5
 40
0.0
  9
$WORLDVIEW
 70
     0
  9
$SHADEDGE
 70
     3
  9
$SHADEDIF
 70
    70
  9
$TILEMODE
 70
     1
  9
$MAXACTVP
 70
     4
  9
$PINSBASE
 10
0.0
 20
0.0
 30
0.0
  9
$PLIMCHECK
 70
     0
  9
$PEXTMIN
 10
1.000000000000000E+20
 20
1.000000000000000E+20
 30
1.000000000000000E+20
  9
$PEXTMAX
 10
-1.000000000000000E+20
 20
-1.000000000000000E+20
 30
-1.000000000000000E+20
  9
$PLIMMIN
 10
0.0
 20
0.0
  9
$PLIMMAX
 10
12.0
 20
12.0
  9
$UNITMODE
 70
     0
  9
$VISRETAIN
 70
     0
  9
$PLINEGEN
 70
     0
  9
$PSLTSCALE
 70
     0
  9
$TREEDEPTH
 70
  3020
  9
$DWGCODEPAGE
  3
dos850
  0
ENDSEC
  0
SECTION
  2
TABLES
  0
TABLE
  2
VPORT
 70
     2
  0
VPORT
  2
*ACTIVE
 70
     0
 10
0.0
 20
0.0
 11
1.0
 21
1.0
 12
51.38253539225293
 22
0.4274337755591873
 13
0.0
 23
0.0
 14
1.0
 24
1.0
 15
10.0
 25
10.0
 16
0.0
 26
0.0
 36
1.0
 17
0.0
 27
0.0
 37
0.0
 40
29.93738785593795
 41
1.275675675675675
 42
50.0
 43
0.0
 44
0.0
 50
0.0
 51
0.0
 71
     0
 72
 20000
 73
     1
 74
     2
 75
     0
 76
     0
 77
     0
 78
     1
  0
ENDTAB
  0
TABLE
  2
LTYPE
 70
     2
  0
LTYPE
  2
CONTINUOUS
 70
    64
  3
Solid line
 72
    65
 73
     0
 40
0.0
  0
LTYPE
  2
GEN
 70
    64
  3
----------------------
 72
    65
 73
     2
 40
10000000000.0
 49
0.0
 49
10000000000.0
  0
ENDTAB
  0
TABLE
  2
LAYER
 70
     4
  0
LAYER
  2
0
 70
     0
 62
     7
  6
CONTINUOUS
  0
LAYER
  2
DEFPOINTS
 70
    64
 62
     7
  6
GEN
  0
LAYER
  2
ITEM_HILFE
 70
    64
 62
     3
  6
CONTINUOUS
  0
LAYER
  2
ITEM_50
 70
    64
 62
     7
  6
CONTINUOUS
  0
ENDTAB
  0
TABLE
  2
STYLE
 70
     1
  0
STYLE
  2
STANDARD
 70
     0
 40
0.0
 41
1.0
 50
0.0
 71
     0
 42
5.0
  3
GENISO
  4

  0
ENDTAB
  0
TABLE
  2
VIEW
 70
     0
  0
ENDTAB
  0
TABLE
  2
UCS
 70
     0
  0
ENDTAB
  0
TABLE
  2
APPID
 70
    10
  0
APPID
  2
ACAD
 70
    64
  0
APPID
  2
GENIUS_GENODEF_13
 70
    64
  0
APPID
  2
GENIUS_GENOBJ-N-FIL_13
 70
    64
  0
ENDTAB
  0
TABLE
  2
DIMSTYLE
 70
     1
  0
DIMSTYLE
  2
GEN-ISO
 70
     0
  3

  4

  5

  6

  7

 40
1.0
 41
2.5
 42
1.0
 43
8.0
 44
2.0
 45
0.0
 46
0.0
 47
0.1
 48
0.1
140
3.5
141
2.0
142
0.0
143
25.39999999999999
144
1.0
145
0.0
146
0.71
147
1.5
 71
     0
 72
     0
 73
     0
 74
     0
 75
     0
 76
     0
 77
     1
 78
     8
170
     0
171
     2
172
     1
173
     0
174
     0
175
     0
176
   256
177
   256
178
     2
  0
ENDTAB
  0
ENDSEC
  0
SECTION
  2
BLOCKS
  0
ENDSEC
  0
SECTION
  2
ENTITIES
  0
LINE
  8
ITEM_50
  5
1F
 10
41.41505889435517
 20
7.62944632889711
 30
0.0
 11
41.41505889435517
 21
8.047924086970887
 31
0.0
  0
LINE
  8
ITEM_50
  5
21
 10
44.41486689435452
 20
4.836804746356541
 30
0.0
 11
44.41486689435429
 21
4.129670328869828
 31
0.0
  0
ARC
  8
ITEM_50
  5
22
 10
44.23055102214228
 20
13.11449904721977
 30
0.0
 40
1.0
 50
91.31126014814957
 51
171.3572204687007
1001
ACAD
1000
ASC_BOUNDS
1002
{
1070
    19
1002
}
  0
ARC
  8
ITEM_50
  5
23
 10
53.17992752188934
 20
12.82088435095884
 30
0.0
 40
0.1
 50
228.1854303273296
 51
5.50659066645025
1001
GENIUS_GENODEF_13
1002
{
1000
HIER
1070
     0
1002
}
1002
{
1000
MANEDIT
1070
     0
1002
}
1002
{
1000
NOSEL
1070
     0
1002
}
1002
{
1000
BEHIND
1070
     0
1002
}
1002
{
1000
REACTOR
1002
}
1001
GENIUS_GENOBJ-N-FIL_13
1002
{
1000
OWNER
1000
GEN
1002
}
1001
ACAD
1000
ASC_BOUNDS
1002
{
1070
    19
1002
}
  0
ARC
  8
ITEM_50
  5
26
 10
50.79100312167226
 20
12.59057974820982
 30
0.0
 40
2.5
 50
5.50659066645009
 51
25.04781251680289
1001
GENIUS_GENODEF_13
1002
{
1000
HIER
1070
     0
1002
}
1002
{
1000
MANEDIT
1070
     0
1002
}
1002
{
1000
NOSEL
1070
     0
1002
}
1002
{
1000
BEHIND
1070
     0
1002
}
1002
{
1000
REACTOR
1002
}
1001
GENIUS_GENOBJ-N-FIL_13
1002
{
1000
OWNER
1000
GEN
1002
}
1001
ACAD
1000
ASC_BOUNDS
1002
{
1070
    19
1002
}
  0
ARC
  8
ITEM_50
  5
27
 10
52.77989431297073
 20
12.37370046063822
 30
0.0
 40
0.5
 50
48.18543032732777
 51
82.77991401247838
1001
GENIUS_GENODEF_13
1002
{
1000
HIER
1070
     0
1002
}
1002
{
1000
MANEDIT
1070
     0
1002
}
1002
{
1000
NOSEL
1070
     0
1002
}
1002
{
1000
BEHIND
1070
     0
1002
}
1002
{
1000
REACTOR
1002
}
1001
GENIUS_GENOBJ-N-FIL_13
1002
{
1000
OWNER
1000
GEN
1002
}
1001
ACAD
1000
ASC_BOUNDS
1002
{
1070
    19
1002
}
  0
ARC
  8
ITEM_50
  5
28
 10
40.38230133065652
 20
12.92747025290263
 30
0.0
 40
0.999999999999994
 50
93.30038264019398
 51
123.3003826401943
1001
ACAD
1000
ASC_BOUNDS
1002
{
1070
    19
1002
}
  0
LINE
  8
ITEM_50
  5
29
 10
40.32473063644089
 20
13.92581168506277
 30
0.0
 11
41.2477704195653
 21
13.97904000895207
 31
0.0
1001
ACAD
1000
ASC_BOUNDS
1002
{
1070
    19
1002
}
  0
LINE
  8
ITEM_50
  5
2A
 10
38.00579366960567
 20
14.99408113848668
 30
0.0
 11
37.00745223744493
 21
14.93651044427108
 31
0.0
1001
ACAD
1000
ASC_BOUNDS
1002
{
1070
    19
1002
}
  0
ARC
  8
ITEM_50
  5
2B
 10
38.39486446949447
 20
14.01485563550549
 30
0.0
 40
0.999999999999989
 50
273.3003826401838
 51
303.3003826401936
1001
ACAD
1000
ASC_BOUNDS
1002
{
1070
    19
1002
}
  0
LINE
  8
ITEM_50
  5
2C
 10
38.12093508492832
 20
12.99739780783861
 30
0.0
 11
38.45243516370998
 21
13.0165142033454
 31
0.0
1001
ACAD
1000
ASC_BOUNDS
1002
{
1070
    19
1002
}
  0
ARC
  8
ITEM_50
  5
2D
 10
38.09214973781993
 20
13.49656852391863
 30
0.0
 40
0.5
 50
183.3003558770801
 51
273.3003826401895
1001
GENIUS_GENODEF_13
1002
{
1000
HIER
1070
     0
1002
}
1002
{
1000
MANEDIT
1070
     0
1002
}
1002
{
1000
NOSEL
1070
     0
1002
}
1002
{
1000
BEHIND
1070
     0
1002
}
1002
{
1000
REACTOR
1002
}
1001
GENIUS_GENOBJ-N-FIL_13
1002
{
1000
OWNER
1000
GEN
1002
}
1001
ACAD
1000
ASC_BOUNDS
1002
{
1070
    19
1002
}
  0
ARC
  8
ITEM_50
  5
2E
 10
37.09380827876838
 20
13.43899829603274
 30
0.0
 40
0.5
 50
3.300355877080001
 51
93.30038264019168
1001
ACAD
1000
ASC_BOUNDS
1002
{
1070
    19
1002
}
  0
LINE
  8
ITEM_50
  5
2F
 10
42.09899354147093
 20
15.23012098477116
 30
0.0
 11
38.00579366960567
 21
14.99408113848668
 31
0.0
1001
ACAD
1000
ASC_BOUNDS
1002
{
1070
    19
1002
}
  0
LINE
  8
ITEM_50
  5
30
 10
38.94389286927877
 20
13.17905194071213
 30
0.0
 11
39.83327293087221
 21
13.76327394769604
 31
0.0
1001
ACAD
1000
ASC_BOUNDS
1002
{
1070
    19
1002
}
  0
ARC
  8
ITEM_50
  5
31
 10
50.29763581984735
 20
12.93458851148805
 30
0.0
 40
1.0
 50
22.45425554395675
 51
85.29169006451604
1001
GENIUS_GENODEF_13
1002
{
1000
HIER
1070
     0
1002
}
1002
{
1000
MANEDIT
1070
     0
1002
}
1002
{
1000
NOSEL
1070
     0
1002
}
1002
{
1000
BEHIND
1070
     0
1002
}
1002
{
1000
REACTOR
1002
}
1001
GENIUS_GENOBJ-N-FIL_13
1002
{
1000
OWNER
1000
GEN
1002
}
1001
ACAD
1000
ASC_BOUNDS
1002
{
1070
    19
1002
}
  0
ARC
  8
ITEM_50
  5
32
 10
51.68391297361119
 20
13.50750705103119
 30
0.0
 40
0.5
 50
202.4542555439567
 51
263.9844765369799
1001
GENIUS_GENODEF_13
1002
{
1000
HIER
1070
     0
1002
}
1002
{
1000
MANEDIT
1070
     0
1002
}
1002
{
1000
NOSEL
1070
     0
1002
}
1002
{
1000
BEHIND
1070
     0
1002
}
1002
{
1000
REACTOR
1002
}
1001
GENIUS_GENOBJ-N-FIL_13
1002
{
1000
OWNER
1000
GEN
1002
}
1001
ACAD
1000
ASC_BOUNDS
1002
{
1070
    19
1002
}
  0
ARC
  8
ITEM_50
  5
33
 10
45.55323519440675
 20
-44.67036494483728
 30
0.0
 40
58.80000000000083
 50
85.29169006451671
 51
91.31126014814913
1001
ACAD
1000
ASC_BOUNDS
1002
{
1070
    19
1002
}
  0
ARC
  8
ITEM_50
  5
34
 10
45.55323519440675
 20
-44.67036494483649
 30
0.0
 40
59.99999999999997
 50
84.77358993274795
 51
93.30038264019266
1001
ACAD
1000
ASC_BOUNDS
1002
{
1070
    19
1002
}
  0
ARC
  8
ITEM_50
  5
35
 10
41.30534111378104
 20
12.98069857679198
 30
0.0
 40
1.0
 50
7.369956500836449
 51
93.30038264019539
1001
GENIUS_GENODEF_13
1002
{
1000
HIER
1070
     0
1002
}
1002
{
1000
MANEDIT
1070
     0
1002
}
1002
{
1000
NOSEL
1070
     0
1002
}
1002
{
1000
BEHIND
1070
     0
1002
}
1002
{
1000
REACTOR
1002
}
1001
GENIUS_GENOBJ-N-FIL_13
1002
{
1000
OWNER
1000
GEN
1002
}
1001
ACAD
1000
ASC_BOUNDS
1002
{
1070
    19
1002
}
  0
ARC
  8
ITEM_50
  5
36
 10
33.0909125263478
 20
15.11132247178708
 30
0.0
 40
0.1
 50
78.68878876441607
 51
236.4303070637987
1001
GENIUS_GENODEF_13
1002
{
1000
HIER
1070
     0
1002
}
1002
{
1000
MANEDIT
1070
     0
1002
}
1002
{
1000
NOSEL
1070
     0
1002
}
1002
{
1000
BEHIND
1070
     0
1002
}
1002
{
1000
REACTOR
1002
}
1001
GENIUS_GENOBJ-N-FIL_13
1002
{
1000
OWNER
1000
GEN
1002
}
1001
ACAD
1000
ASC_BOUNDS
1002
{
1070
    19
1002
}
  0
ARC
  8
ITEM_50
  5
37
 10
36.12317543859426
 20
30.27087765694719
 30
0.0
 40
15.35984255356116
 50
258.6887887644192
 51
273.3003826401946
1001
ACAD
1000
ASC_BOUNDS
1002
{
1070
    19
1002
}
  0
ARC
  8
ITEM_50
  5
38
 10
36.68505983610673
 20
20.52716200849383
 30
0.0
 40
6.599939443687421
 50
236.4303070637988
 51
273.3003826401928
1001
ACAD
1000
ASC_BOUNDS
1002
{
1070
    19
1002
}
  0
ARC
  8
ITEM_50
  5
39
 10
50.79100312167226
 20
12.59057974820982
 30
0.0
 40
2.499999999999996
 50
25.04781251680292
 51
84.77358993274786
1001
ACAD
1000
ASC_BOUNDS
1002
{
1070
    19
1002
}
  0
ARC
  8
ITEM_50
  5
3A
 10
45.55323519440675
 20
-44.67036494483649
 30
0.0
 40
58.0
 50
82.77991401247815
 51
83.9844765369789
1001
ACAD
1000
ASC_BOUNDS
1002
{
1070
    19
1002
}
  0
LINE
  8
ITEM_50
  5
3B
 10
41.41505889434878
 20
8.336642804958991
 30
0.0
 11
41.41505889434878
 21
8.229535928897441
 31
0.0
  0
ARC
  8
ITEM_50
  5
3C
 10
47.91877084908764
 20
8.767865071923076
 30
0.0
 40
5.000000000000003
 50
178.9622147952193
 51
210.0000000000085
1001
ACAD
1000
ASC_BOUNDS
1002
{
1070
    19
1002
}
  0
LINE
  8
ITEM_50
  5
3D
 10
41.41505889435517
 20
7.62944632889711
 30
0.0
 11
41.41505889435631
 21
8.336642804958991
 31
0.0
1001
ACAD
1000
ASC_BOUNDS
1002
{
1070
    19
1002
}
  0
ARC
  8
ITEM_50
  5
3E
 10
41.41915753040427
 20
8.836626005859251
 30
0.0
 40
0.4999999999999991
 50
269.5303256453011
 51
359.0606828500185
1001
ACAD
1000
ASC_BOUNDS
1002
{
1070
    19
1002
}
  0
LINE
  8
ITEM_50
  5
3F
 10
44.41486689435611
 20
4.129625069373709
 30
0.0
 11
44.41486689435657
 21
4.83680474635927
 31
0.0
1001
ACAD
1000
ASC_BOUNDS
1002
{
1070
    19
1002
}
  0
LINE
  8
ITEM_50
  5
40
 10
44.31092899480207
 20
3.010475974060604
 30
0.0
 11
44.41487451515524
 21
4.129625715582314
 31
0.0
1001
ACAD
1000
ASC_BOUNDS
1002
{
1070
    19
1002
}
  0
LINE
  8
ITEM_50
  5
41
 10
44.41486689435657
 20
4.83680474635927
 30
0.0
 11
43.58864383016577
 21
6.26786507192245
 31
0.0
1001
ACAD
1000
ASC_BOUNDS
1002
{
1070
    19
1002
}
  0
ARC
  8
ITEM_50
  5
42
 10
44.01221465924043
 20
3.038220265905444
 30
0.0
 40
0.3
 50
209.9999999999638
 51
354.6936481957803
1001
ACAD
1000
ASC_BOUNDS
1002
{
1070
    19
1002
}
  0
LINE
  8
ITEM_50
  5
43
 10
41.11505889435249
 20
7.4562412481391
 30
0.0
 11
43.75240703810504
 21
2.888220265905637
 31
0.0
1001
ACAD
1000
ASC_BOUNDS
1002
{
1070
    19
1002
}
  0
LINE
  8
ITEM_50
  5
44
 10
41.41505889435517
 20
7.62944632889711
 30
0.0
 11
41.11505889435249
 21
7.4562412481391
 31
0.0
  0
LINE
  8
ITEM_50
  5
45
 10
41.9190903396494
 20
8.828429284547759
 30
0.0
 11
42.29707967482917
 21
13.10897416500038
 31
0.0
  0
LINE
  8
ITEM_50
  5
46
 10
43.24190656630741
 20
13.26477259761029
 30
0.0
 11
42.91959100764429
 21
8.858423963847691
 31
0.0
  0
POINT
  8
ITEM_HILFE
  5
47
 10
32.91688289434579
 20
-1.316391262375269
 30
0.0
  0
LINE
  8
DEFPOINTS
  5
49
 10
32.99091252634779
 20
-13.54126015240979
 30
0.0
 11
32.99091252634779
 21
-14.52111988323804
 31
0.0
  0
LINE
  8
DEFPOINTS
  5
4A
 10
32.99296167358127
 20
-14.54126015240979
 30
0.0
 11
53.27932124685185
 21
-14.54126015240979
 31
0.0
  0
LINE
  8
DEFPOINTS
  5
4B
 10
53.27932124685185
 20
-13.54126015240979
 30
0.0
 11
53.27932124685185
 21
-14.54126015240979
 31
0.0
  0
LINE
  8
DEFPOINTS
  5
4C
 10
32.99091252634779
 20
-13.54126015240979
 30
0.0
 11
53.27932124685185
 21
-13.54126015240979
 31
0.0
  0
ENDSEC
  0
EOF
